Trenzinho Caipira

Cap. 6  Shape
Pág 2

Agora você vai tocar a música trenzinho caipira utilizando a escala de Dó Maior, no shape 1. Veja na prática uma melodia tocada em cima de uma escala, de um shape.

Música

            C                                                                                      F/C

 

1E]-----------------------------------------3-----3--3-----------------------[

2B]----5----5--5---3--------5--------5------------------6--5---6-----------[

3G]----------------------5----------------------------------------------------[

4D]----------------------------------------------------------------------------[

5A]----------------------------------------------------------------------------[

6E]----------------------------------------------------------------------------[

 

                                                                    G                                   C

1E]-----------------------------------------5-----5--5-----3-------3-----------[

2B]----6----6--6---5----3----6--------6-----------------------6---------------[

3G]------------------------------------------------------------------------------[

4D]------------------------------------------------------------------------------[

5A]------------------------------------------------------------------------------[

6E]------------------------------------------------------------------------------[

 

           Am                               Em                     F7M                                    Em  Am

 

1E]----8----8---8-----7---5---7----------------5-----5----5----3---------3---------[

2B]-----------------------------------5---------------------------------6--------------[

3G]-------------------------------------------------------------------------------------[

4D]-------------------------------------------------------------------------------------[

5A]-------------------------------------------------------------------------------------[

6E]-------------------------------------------------------------------------------------[

 

         Dm                                   C                                                           G

 

1E]-------------------------------------------------------------------------------------[

2B]---6----6---6----5----3----5-----------5------5----5----3---------3-------------[

3G]-----------------------------------------------------------------5------------------[

4D]-------------------------------------------------------------------------------------[

5A]-------------------------------------------------------------------------------------[

6E]-------------------------------------------------------------------------------------[

 

                                                C                                                                   F/C

 

1E]-------------------------------------------------------------------------------------------[

2B]-----3----3---------------------------------3-------3----3-------------------------------[

3G]-----------------5----4----2----------2-----------------------5----4----2--------2------[

4D]-------------------------------------------------------------------------------------------[

5A]-------------------------------------------------------------------------------------------[

6E]-------------------------------------------------------------------------------------------[

 

         C                                                F/C                 C

1E]--------------------------------------------------------------------------------------------[

2B]--3---------3----3-------------------------------------------------------------------------[

3G]------------------------5----4----2----------4----2-----------4---2----------4---2------[

4D]--------------------------------------------------------------------------------------------[

5A]--------------------------------------------------------------------------------------------[

6E]--------------------------------------------------------------------------------------------[

 

Não se esqueça de usar a digitação igual à da figura abaixo quando for fazer a melodia.

Harmonia

Acorde Invertido

Esse acorde F/C é um acorde invertido, é um Fá Maior (Fá, Lá, Dó), mas com a quinta, o dó, fazendo o papel do baixo - a nota mais grave do acorde. Então em vez de fazer o Baixo na tônica (Fá) que fica na sexta corda. Você deverá tocar na quinta corda, onde na terceira casa tem o dó. 

F

F/C

F/C

Tocando a melodia oitava abaixo

 

1E]----------------------------------------------------------------------------[

2B]----------------------------------------------------------------------------[

3G]----------------------------------------------------------------------------[

4D]----2----2---2-------------2--------2----5----5--5---3---2--3----------[

5A]------------------5----3---------------------------------------------------[

6E]----------------------------------------------------------------------------[

 

 

1E]-------------------------------------------------------------------------------[

2B]-------------------------------------------------------------------------------[

3G]------------------------------------------2-----2--2-------------------------[

4D]----3----3---3---2--------3---------3------------------5----3---5----------[

5A]-----------------------5------------------------------------------------------[

6E]-------------------------------------------------------------------------------[

 

 

1E]-------------------------------------------------------------------------------------[

2B]-------------------------------------------------------------------------------------[

3G]----5----5---5-----4---2---4----------------2-----2----2-------------------------[

4D]-----------------------------------2----------------------------5----3----5--------[

5A]-------------------------------------------------------------------------------------[

6E]-------------------------------------------------------------------------------------[

 

 

1E]-------------------------------------------------------------------------------------[

2B]-------------------------------------------------------------------------------------[

3G]-------------------------------------------------------------------------------------[

4D]---3----3---3----2---------2------------2------2----2-----------------------------[

5A]------------------------5-----------------------------------5----3----5------------[

6E]-------------------------------------------------------------------------------------[

 

 

1E]-------------------------------------------------------------------------------------------[

2B]-------------------------------------------------------------------------------------------[

3G]-------------------------------------------------------------------------------------------[

4D]-------------------------------------------------------------------------------------------[

5A]-----5----5-----3-----2----0----------0----5------5-----5----3---2-----0-------0------[

6E]-------------------------------------------------------------------------------------------[

 

 

1E]--------------------------------------------------------------------------------------------[

2B]--------------------------------------------------------------------------------------------[

3G]--------------------------------------------------------------------------------------------[

4D]--------------------------------------------------------------------------------------------[

5A]---5--------5----5-----3----2----0----------2----0-----------2---0----------2---0------[

6E]--------------------------------------------------------------------------------------------[

 

Tocando em outros tons

Escala de Ré Maior - Shape 1

 

1E]--------------------------------------------------------------------5----7----9----10---[

2B]---------------------------------------------------5----7----8---------------------------[

3G]----------------------------------4-----6----7-------------------------------------------[

4D]----------------4----5-----7-------------------------------------------------------------[

5A]-----5----7-------------------------------------------------------------------------------[

6E]-------------------------------------------------------------------------------------------[

 

           

 

1E]-----------------------------------------5-----5--5-----------------------[

2B]----7----7--7---5--------7--------7------------------8--7---8-----------[

3G]----------------------7----------------------------------------------------[

4D]----------------------------------------------------------------------------[

5A]----------------------------------------------------------------------------[

6E]----------------------------------------------------------------------------[

 

 

1E]-----------------------------------------7-----7--7-----5-------5-----------[

2B]----8----8--8---7----5----8--------8-----------------------8---------------[

3G]------------------------------------------------------------------------------[

4D]------------------------------------------------------------------------------[

5A]------------------------------------------------------------------------------[

6E]------------------------------------------------------------------------------[

 

 

1E]----10----10---10-----9---7---9----------------7-----7----7----5---------5---[

2B]----------------------------------------7---------------------------------8-------[

3G]-----------------------------------------------------------------------------------[

4D]-----------------------------------------------------------------------------------[

5A]-----------------------------------------------------------------------------------[

6E]-----------------------------------------------------------------------------------[

 

 

1E]-------------------------------------------------------------------------------------[

2B]---8----8---8----7----5----7-----------7------7----7----5---------5-------------[

3G]-----------------------------------------------------------------7------------------[

4D]-------------------------------------------------------------------------------------[

5A]-------------------------------------------------------------------------------------[

6E]-------------------------------------------------------------------------------------[

 

 

1E]-------------------------------------------------------------------------------------------[

2B]-----5----5---------------------------------5-------5----5-------------------------------[

3G]-----------------7----6----4----------4-----------------------7----6----4--------4------[

4D]-------------------------------------------------------------------------------------------[

5A]-------------------------------------------------------------------------------------------[

6E]-------------------------------------------------------------------------------------------[

 

 

1E]--------------------------------------------------------------------------------------------[

2B]--5---------5----5-------------------------------------------------------------------------[

3G]------------------------7----6----4----------6----4-----------6---4----------6---4------[

4D]--------------------------------------------------------------------------------------------[

5A]--------------------------------------------------------------------------------------------[

6E]--------------------------------------------------------------------------------------------[

 

Página anterior

Cap 6
Pág 2

Próxima página