CAP 4  PÁG 5

Tocando na escala de Sol Maior

Cap. 4 Intervalo e escala Maior
Pág 5

Música

O minueto em G de Bach é uma melodia excelente na escala de Sol Maior. 

Lembre-se de usar dedo 1 na casa 1, dedo 2 na casa 2, dedo 3 na 3 e o 4 na 4

Parte A

1E]---------------------------------------------------------0-----------------0---2---3--------------------[

2B]----3-----------------0---1---3--------------------------------1----3----------------------------------[

3G]------------0----2--------------------0-------0------------------------------------------0-------0-----[

4D]---------------------------------------------------------------------------------------------------------[

5A]---------------------------------------------------------------------------------------------------------[

6E]---------------------------------------------------------------------------------------------------------[

 

 

 

1E]---------------------------------------------------------------------------------------------------------[

2B]----1-----3---1----0-----------0------1----0----------------------------------------0-----------------[

3G]-------------------------2--------------------------2----0-----------------0----2----------0----2-----[

4D]---------------------------------------------------------------4-----------------------------------------[

5A]---------------------------------------------------------------------------------------------------------[

6E]---------------------------------------------------------------------------------------------------------[

 

 

 

 

1E]---------------------------------------------------------0-----------------0---2---3--------------------[

2B]----3-----------------0---1---3--------------------------------1----3----------------------------------[

3G]------------0----2--------------------0-------0------------------------------------------0-------0-----[

4D]----------------------------------------------------------------------------------------------------------[

5A]----------------------------------------------------------------------------------------------------------[

6E]----------------------------------------------------------------------------------------------------------[

 

 

 

1E]---------------------------------------------------------------------------------------------------------[

2B]----1-----3---1----0-----------0------1----0----------------------------0-----------------------------[

3G]-------------------------2--------------------------2----0----2-----------------2----0---------0------[

4D]---------------------------------------------------------------------------------------------4----------[

5A]---------------------------------------------------------------------------------------------------------[

6E]---------------------------------------------------------------------------------------------------------[

 

 

Na parte B irá aparecer um dó# (2ª corda, 2ª casa - em vermelho na tablatura), que é uma nota de fora da escala de Sol Maior, na verdade ela pertence ao tom de Ré Maior e funcionaria como a nota sensível de Ré, fazendo uma harmonia chamada dominante da dominante, mas este ensinamento não vêm ao caso agora. Vamos à parte B:

Parte B

1E]----7------3----5----7----3-----5----------------0----2----------3--------0---2---3---0----------------------[

2B]---------------------------------------------3----------------3--------------------------------2----0---2-------[

3G]---------------------------------------------------------------------------------------------------------------2--[

4D]------------------------------------------------------------------------------------------------------------------[

5A]------------------------------------------------------------------------------------------------------------------[

6E]------------------------------------------------------------------------------------------------------------------[

 

 

1E]-----------------------0---2---3-------2-------0-------2---------------------------------------[

2B]---------0---2---3------------------------------------------------------2-------3--------------[

3G]----2------------------------------------------------------------2------------------------------[

4D]-------------------------------------------------------------------------------------------------[

5A]-------------------------------------------------------------------------------------------------[

6E]-------------------------------------------------------------------------------------------------[

 

 

 

1E]----------------------------------0-------------------------------------------------------------------------------[

2B]----3---------------------------------------------------------3-------1-------0----------------------------------[

3G]----------0----------0------------------0----------0---------------------------------2-----0----------0----2---[

4D]----------------4-----------------------------4---------------------------------------------------4--------------[

5A]-------------------------------------------------------------------------------------------------------------------[

6E]-------------------------------------------------------------------------------------------------------------------[

 

 

 

 

1E]----------------------------------------------------------------------------------------------------[

2B]------------------------------0---1------0---------------0----3-----------------------------------[

3G]--------------------0---2------------------------2-------------------0---------------0------------[

4D]----0----2----4----------------------------------------------------------------4------------------[

5A]----------------------------------------------------------------------------------------------------[

6E]----------------------------------------------------------------------------------------------------[

 

Dentro de uma melodia, também pode haver notas de fora da escala.

Página anterior

Cap 4
Pág 5

Próxima página