Os 6 shapes

Os 6 shapes

Cap. 6  Shape
Pág 7

Além do shape 1 trabalhado na outra página, é possível fazer outras digitações para a escala maior no braço do violão. Veja abaixo a divisão da escala em 6 shapes diferentes.  É usado o tom de Dó maior como exemplo, mas se você quiser fazer de outro tom é só começar da nota do tom desejado. As bolas amarelas representam a tônica (1º grau) da escala

Shape 1

Esse shape deve começar com o dedo 2. A tônica (1º grau) se encontra na 5ª corda.

1E]--------------------------------------------------------------------3----5----7----8-----[

2B]---------------------------------------------------3----5----6---------------------------[

3G]----------------------------------2-----4----5-------------------------------------------[

4D]----------------2----3-----5-------------------------------------------------------------[

5A]-----3----5-------------------------------------------------------------------------------[

6E]-------------------------------------------------------------------------------------------[

 

Shape 2

Esse shape deve começa na mesma posição do shape 1 - a tônica (1º grau) se encontra na 5ª corda, mas o caminho dele é diferente, avança horizontalmente. .

 

1E]---------------------------------------------------------------------5----7----8-----[

2B]-----------------------------------------------------5----6----8---------------------[

3G]-------------------------------------4----5----7-------------------------------------[

4D]---------------------3----5----7-----------------------------------------------------[

5A]------3---5---7----------------------------------------------------------------------[

6E]---------------------------------------------------------------------------------------[

Shape 3

O shape 3 já começa usando a tônica na 6ª corda. No caso de Dó Maior, irá começar na 8ª casa. Você deve utilizar o dedo 4 para começar.

8ª casa

 

1E]-------------------------------------------------------------------------5----7----8-----[

2B]--------------------------------------------------------------6----8---------------------[

3G]--------------------------------------------5-----7----9---------------------------------[

4D]---------------------------5----7----9---------------------------------------------------[

5A]----------5----7----8--------------------------------------------------------------------[

6E]----8-------------------------------------------------------------------------------------[

Shape 4

O shape 4 começa também usando a tônica na 6ª corda. No caso de Dó Maior, irá começar na 8ª casa. Você deve utilizar o dedo 2 para começar.

8ª casa

 

1E]---------------------------------------------------------------------------------7----8----10----[

2B]---------------------------------------------------------------------8----10---------------------[

3G]----------------------------------------------------7----9----10---------------------------------[

4D]----------------------------------7----9----10---------------------------------------------------[

5A]----------------7----8----10---------------------------------------------------------------------[

6E]----8---10----------------------------------------------------------------------------------------[

Shape 5

O shape 5 usa a tônica na 6ª corda. Utiliza o dedo 1 para começar. Esse shape é bem fácil de decorar, pois o mesmo desenho se repete em duas cordas seguidas.

8ª casa

 

1E]------------------------------------------------------------------------------------------------------10----12---13---[

2B]----------------------------------------------------------------------------------10----12----13----------------------[

3G]---------------------------------------------------------------9----10----12------------------------------------------[

4D]-------------------------------------------9----10----12--------------------------------------------------------------[

5A]-----------------------8----10----12----------------------------------------------------------------------------------[

6E]----8---10----12------------------------------------------------------------------------------------------------------[

Shape 6

O shape 6 é um shape extra. Ele começa na quinta corda. Nesse caso, o shape abaixo é na escala de ré Maior, pois se fosse no shape de dó seria com cordas soltas

 

1E]---------------------------------------------------2---3----5----------------------------[

2B]-----------------------------------2---3----5--------------------------------------------[

3G]------------------------2----4-----------------------------------------------------------[

4D]---------2---4---5-----------------------------------------------------------------------[

5A]----5-------------------------------------------------------------------------------------[

6E]------------------------------------------------------------------------------------------[

Veja como fica em Dó Maior com as cordas soltas

 

1E]---------------------------------------------------0---1----3----------------------------[

2B]-----------------------------------0---1----3--------------------------------------------[

3G]------------------------0----2-----------------------------------------------------------[

4D]---------0---2---3-----------------------------------------------------------------------[

5A]----3-------------------------------------------------------------------------------------[

6E]------------------------------------------------------------------------------------------[

Página anterior

Cap 6
Pág 7

Próxima página