Cap. 10  Escala Pentatônica
Pág 6

Licks e Percepção

Mais licks de Blues

Veja nesta página mais licks de blues para você treinar e depois faça o exercício e tente tirar de ouvido.

Praticando

Lick 1

 

1E]----------------------------[

2B]----------------------------[

3G]----------------7-----------[

4D]----------------------------[

5A]--5---6---7----------------[

6E]----------------------------[

Lick 2
Lick 3

 

1E]---------------------------------------------[

2B]---------------------------------------------[

3G]--------------------------5----7/8---7-----[

4D]---------------5---7------------------------[

5A]--5---6---7---------------------------------[

6E]---------------------------------------------[

Lick 4

 

1E]-------------------------5-------------------[

2B]----------------5---8-------5---------------[

3G]---5---7---8--------------------5-----------[

4D]-------------------------------------7-------[

5A]----------------------------------------------[

6E]----------------------------------------------[

Lick 5
Lick 6

 

1E]----------------5----------------------------------[

2B]-----------5--------8---5-------------------------[

3G]---7/8------------------------8----7----5--------[

4D]-----------------------------------------------7---[

5A]----------------------------------------------------[

6E]----------------------------------------------------[

Lick 7

Tire de ouvido

1 - Veja os vídeos abaixo e usando seu violão, tente tirar as frases usando o ouvido, e nesse caso, a visão também.

A

B

C

D

1 - Veja os vídeos abaixo e usando seu violão, tente tirar as frases usando o ouvido, e nesse caso, a visão também.

A

B

C

Página anterior

Cap 10
Pág 6

Próxima página