CAP 2  PÁG 1

Luar do Sertão

Cap. 2 Escala de Dó maior
Pág 1  Luar do Sertão

O seu objetivo agora é tocar a música Luar do Sertão.Ao fazer a melodia, você está praticando a 1ª região, trabalhando a escala Maior e memorizando as notas naturais

Música

Tocando Luar do Sertão

Essa música é feita na escala de Dó Maior, veja ao lado as notas que serão usadas para a melodia, na 1ª região do braço.

Veja a região onde é tocada a melodia. Vai do Sol (3ªcorda, 1ª casa), até o Lá (1ªcorda, 5ªcasa)

Notas usadas na melodia Luar do sertão

           Sol     Lá      Si     Dó     Ré      Mi     Fá    Sol     Lá

 

1E]-------------------------------------0----1-----3-----5----[ 

2B]------------------0-----1----3-----------------------------[

3G]-----0----2-------------------------------------------------[

4D]-------------------------------------------------------------[

5A]-------------------------------------------------------------[

6E]-------------------------------------------------------------[

Suba e desca essa sequencia falando o nome das notas para memorizar. Memorize as notas!

Luar do Sertão 

Parte A -  Refrão

              C                                         F                                        G                                    C                        

 

1E]---------------------0------------1--------0----------------------------------------------------[ 

2B]-------1-------3-------------3-----------------3--------1---0----------------------------------[

3G]---0------------------------------------------------------------------2---0---------------------[

4D]-----------------------------------------------------------------------------------3--2----------[

5A]--------------------------------------------------------------------------------------------------[

6E]--------------------------------------------------------------------------------------------------[

 

Parte A´ -  Refrão

               C                                        F                                         G                                     C

 

1E]---------------------0------------1--------0-----------------------------------------------------[ 

2B]-------1-------3-------------3-----------------3--------1---0-------------------3----1---------[

3G]---0------------------------------------------------------------------2---0----------------------[

4D]--------------------------------------------------------------------------------------------------[

5A]--------------------------------------------------------------------------------------------------[

6E]--------------------------------------------------------------------------------------------------[

 

 

 

Parte B  -  Verso

                                     C                          

                          

1E]------------------------------------------0-----0----0-----------------[ 

2B]---------------0----1----1----1----3---------------------3-----------[

3G]----0----2-------------------------------------------------------------[

4D]------------------------------------------------------------------------[

5A]------------------------------------------------------------------------[

6E]------------------------------------------------------------------------[

            F                                                                 G                                                                   C

 

1E]----1----1----1----0--------------------------------------------------------------------------------------[ 

2B]--------------------------3----3----3----1-----3----1----0------------0---------------------------------[

3G]------------------------------------------------------------------2----------2----0-----------------------[

4D]-----------------------------------------------------------------------------------------3----2------------[

5A]------------------------------------------------------------------------------------------------------------[

6E]------------------------------------------------------------------------------------------------------------[

 

 

Parte B´ -  Verso

 

                                    C                                                

1E]------------------------------------------0-----0----0-----------------[ 

2B]---------------0----1----1----1----3---------------------3-----------[

3G]----0----2-------------------------------------------------------------[

4D]------------------------------------------------------------------------[

5A]------------------------------------------------------------------------[

6E]------------------------------------------------------------------------[

           F                                                                  G                                                                   C

 

1E]----1----1----1----0--------------------------------------------------------------------------------------[ 

2B]--------------------------3----3----3----1-----3----1----0------------0---------------3----1-----------[

3G]------------------------------------------------------------------2----------2----0-----------------------[

4D]-----------------------------------------------------------------------------------------------------------[

5A]------------------------------------------------------------------------------------------------------------[

6E]------------------------------------------------------------------------------------------------------------[

  1. Use o dedo 1 na casa 1, dedo 2 na casa 2 e dedo 3 na 3.
  2. Saiba que nota está tocando, se é um dó, ré, um lá... 
  3. Depois de aprender, tente tocar sem olhar para tablatura

Dicas

Dicas para tocar

Veja aqui uma orientação de como executar melhor a prática no violão

Cifra - Luar do Sertão

         C                       F

Não há, ó gente, ó não

                    G                  C
Luar como esse do sertão

        C                       F
Não há, ó gente, ó não

                    G                   C
Luar como esse do sertão

 

 

                      C                                     F
Oh! que saudade do luar da minha terra

                                 G                                          C
Lá na serra braqueando folhas secas pelo chão

            C                                    F
Este luar cá da cidade tão escuro

                                   G                                     C
Não tem aquela saudade do luar lá do sertão

 

 

        C                       F
Não há, ó gente, ó não

                    G                   C
Luar como esse do sertão

        C                       F
Não há, ó gente, ó não

                    G                  C
Luar como esse do sertão

 

 

                 C                                           F
Se a lua nasce por detrás da verde mata

                                          G                                   C
Mais parece um sol de prata prateando a solidão

                   C                                   F
E a gente pega na viola que ponteia

                                     G                                          C
E a canção é a Lua Cheia a nos nascer do coração

 

 

         C                       F
Não há, ó gente, ó não

                     G                  C
Luar como esse do sertão

        C                        F
Não há, ó gente, ó não

                    G                   C
Luar como esse do sertão

 


                       C                                             F
Mas como é lindo ver depois pro entre o mato

                               G                                                C
Deslizar calmo regato transparente como um véu

                  C                                            F
No leito azul das suas águas murmurando

                               G                                        C
E por sua vez roubando as estrelas lá do céu

 


         C                       F
Não há, ó gente, ó não

                    G                  C
Luar como esse do sertão

         C                       F
Não há, ó gente, ó não

                    G                   C
Luar como esse do sertão

 

 

 

Página anterior

Cap2
Pág 1

Próxima página