Arpejos

Cap. 5 Acordes
Pág 6

Arpejo é quando toca-se as notas de um acorde em sequência, formando uma melodia. Veja abaixo no vídeo os arpejos dos acordes (tríades - Tônica - terça - Quinta)  maiores e menores de todos os tons naturais (dó, ré, mi, fá, sol, lá, si).

C  -   T -   3ªM - Mi   5J - Sol

1E]-------------------------0----3-----[

2B]--------------------1---------------[

3G]---------------0--------------------[

4D]-----------2------------------------[

5A]------3-----------------------------[

6E]------------------------------------[

Cm  -   T -   3ªm - Mi   5J - Sol

1E]----------------------------------3-----8-----[

2B]----------------------------4-----------------[

3G]-----------------------5----------------------[

4D]------------------5---------------------------[

5A]------3-----6---------------------------------[

6E]-----------------------------------------------[

D  -   T -   3ªM - Fá#   5J -

1E]---------------------------2-----5-------[

2B]---------------------3-------------------[

3G]---------------2-------------------------[

4D]----0----4------------------------------[

5A]-----------------------------------------[

6E]-----------------------------------------[

Dm  -   T -   3ªm -    5J -

1E]---------------------------1-----5-------[

2B]---------------------3-------------------[

3G]---------------2-------------------------[

4D]----0----3------------------------------[

5A]-----------------------------------------[

6E]-----------------------------------------[

E  -   T - Mi   3ªM - Sol#   5J - Si

1E]-----------------------------------0----4---[

2B]------------------------------0-------------[

3G]-------------------------1------------------[

4D]-------------------2------------------------[

5A]--------------2-----------------------------[

6E]---0----4-----------------------------------[

Em  -   T - Mi   3ªm - Sol   5J - Si

1E]-----------------------------------0----3---[

2B]------------------------------0-------------[

3G]-------------------------1------------------[

4D]-------------------2------------------------[

5A]--------------2-----------------------------[

6E]---0----3-----------------------------------[

F  -   T -   3ªm -    5J -

1E]-----------------------------------1----5---[

2B]------------------------------1-------------[

3G]-------------------------2------------------[

4D]-------------------3------------------------[

5A]---------0----3-----------------------------[

6E]---1-----------------------------------------[

Fm  -   T -   3ªm - Láb   5J -

1E]-----------------------------------1----5---[

2B]------------------------------1-------------[

3G]-------------------------2------------------[

4D]-------------------3------------------------[

5A]---------0----3-----------------------------[

6E]---1-----------------------------------------[

G  -   T - Sol   3ªM - Si   5J -

1E]-----------------------------------------3----[

2B]------------------------------0----3---------[

3G]-------------------------0-------------------[

4D]-------------------0-------------------------[

5A]---------0----2------------------------------[

6E]---3-----------------------------------------[

Gm  -   T - Sol   3ªm - Si   5J -

1E]------------------------------------3-----6----[

2B]------------------------------3----------------[

3G]-------------------------3---------------------[

4D]-------------------5---------------------------[

5A]-------------5---------------------------------[

6E]---3----6--------------------------------------[

A  -   T -   3ªM - Dó#   5J - Mi

1E]--------------------------------0----5-----[

2B]--------------------------2----------------[

3G]--------------------2----------------------[

4D]---------------2---------------------------[

5A]----0----4---------------------------------[

6E]--------------------------------------------[

Am  -   T -   3ªm -    5J - Mi

1E]--------------------------------0----5-----[

2B]--------------------------1----------------[

3G]--------------------2----------------------[

4D]---------------2---------------------------[

5A]----0----3---------------------------------[

6E]--------------------------------------------[

B  -   T - Si   3ªM - Ré#   5J - Fá#

1E]--------------------------------2----7-----[

2B]--------------------------4----------------[

3G]--------------------4----------------------[

4D]---------------4---------------------------[

5A]----2----6---------------------------------[

6E]--------------------------------------------[

Bm  -   T - Si   3ªm -    5J - Fá#

1E]--------------------------------2----7-----[

2B]--------------------------3----------------[

3G]--------------------4----------------------[

4D]---------------4---------------------------[

5A]----2----5---------------------------------[

6E]--------------------------------------------[

Página anterior

Cap 5
Pág 6

Próxima página