CAP 4  PÁG 4

A Escala Maior

Escala de Sol Maior

Cap. 4 Intervalo e escala Maior
Pág 4

Vamos tocar agora na escala de Sol Maior. Veja no vídeo como ela é feita na 1ª posição.

Atenção: Use sempre o dedo na casa 1, dedo 2 na casa 2, o 3 na 3, e o dedo 4 na 4

Coloquei o solo da música Asa Branca em  duas tonalidades, em Dó e em Sol, faça os dois e veja a diferença na disposição das notas.

Em Dó Maior

         Dó     ré     mi    sol    sol    mi      fá    fá

 

1E]--------------0-----3-----3----0-----1---1---[

2B]---1----3-------------------------------------[

3G]-----------------------------------------------[

4D]-----------------------------------------------[

5A]-----------------------------------------------[

6E]-----------------------------------------------[

 

 

          Dó   ré    mi     sol     sol    fá      mi

 

1E]--------------0-----3-----3----1-----0-----[

2B]---1----3-----------------------------------[

3G]---------------------------------------------[

4D]---------------------------------------------[

5A]---------------------------------------------[

6E]---------------------------------------------[

 

 

         Dó    dó     ré       mi      sol

 

1E]----------------------0-----3-----------[

2B]---1----1-----3-------------------------[

3G]-----------------------------------------[

4D]-----------------------------------------[

5A]-----------------------------------------[

6E]-----------------------------------------[

 

 

          Sol    fá    mi     dó     fá

 

1E]----3----1----0----------1-------- --[

2B]--------------------1------------- ---[

3G]--------------------------------------[

4D]--------------------------------------[

5A]--------------------------------------[

6E]--------------------------------------[

 

 

           mi    mi      ré    ré     mi

 

1E]----0----0----------------0------[

2B]----------------3----3-----------[

3G]----------------------------------[

4D]----------------------------------[

5A]----------------------------------[

6E]----------------------------------[

 

 

 

             ré    ré      dó     dó

 

1E]-------------------------------[

2B]-----3----3-----1-----1------[

3G]-------------------------------[

4D]-------------------------------[

5A]-------------------------------[

6E]-------------------------------[

 

 

 

 

 

 

Em Sol Maior

         Sol   lá      si      ré       ré     si      dó   dó

      

1E]------------------------------------------------------[

2B]---------------0------3-----3-----0-----1-----1----[

3G]---0-----2-------------------------------------------[

4D]------------------------------------------------------[

5A]------------------------------------------------------[

6E]------------------------------------------------------[

 

 

 

         Sol    lá     si       ré      ré     dó     si

          

1E]---------------------------------------------[

2B]----------------0----3----3-----1-----0----[

3G]---0-----2----------------------------------[

4D]---------------------------------------------[

5A]---------------------------------------------[

6E]---------------------------------------------[

 

 

          Sol     sol      lá       si       ré

        

1E]--------------------------------------[

2B]------------------------0-----3------[

3G]----0-----0-----2--------------------[

4D]--------------------------------------[

5A]--------------------------------------[

6E]--------------------------------------[

 

 

           Ré    dó    si     sol    dó

        

1E]---------------------------------[

2B]----3----1----0----------1-----[

3G]---------------------0----------[

4D]---------------------------------[

5A]---------------------------------[

6E]---------------------------------[

 

 

          Si     si      lá      lá     si

 

1E]-------------------------------[

2B]---0----0----------------0----[

3G]--------------2-----2---------[

4D]-------------------------------[

5A]-------------------------------[

6E]-------------------------------[

 

 

             lá      lá     sol     sol

             

1E]-------------------------------[

2B]-------------------------------[

3G]-----2-----2-----0----0------[

4D]-------------------------------[

5A]-------------------------------[

6E]-------------------------------[

 

 

 

 

 

 

Você aprendeu que:

  • Para fazer a escala de Sol Maior, é só usar a mesma fôrma da escala de Dó Maior começando pela nota Sol

  • A escala de Sol Maior possui uma alteração - o Fá#

Página anterior

Cap 4
Pág 4

Próxima página