Blues na Penta menor

Tema Blues

Cap. 10  Escala Pentatônica
Pág 3

Criei um tema de blues para praticar a pentatônica. veja no vídeo abaixo.  Você verá o tema e depois alguns licks de blues que  foram numerados e reproduzidos na página. Há também  uma parte de improviso no vídeo.

Tema 

        A7                 

1E]-----------------------------------------------------------------------------------[

2B]-----------------------------------------------------------5----------------------[

3G]---------5----7----5--------------------------5----7-----------5----------------[

4D]----7-------------------7----------------7---------------------------7-----------[

5A]-----------------------------------------------------------------------------------[

6E]-----------------------------------------------------------------------------------[

 

        D7                                           A7

 

1E]-----------------------------------------------------------------------------------[

2B]-----------------------------------------------------------5----------------------[

3G]---------5----7----5---7----------------------5----7-----------5----------------[

4D]----7------------------------------------7---------------------------7-----------[

5A]-----------------------------------------------------------------------------------[

6E]-----------------------------------------------------------------------------------[

 

 

                     E7                                                           D7

 

1E]----------8-----5------------5--------------------------------------------[

2B]----5------------------8-----------8----5--------------------------------[

3G]------------------------------------------------7---7---------------------[

4D]---------------------------------------------------------------------------[

5A]---------------------------------------------------------------------------[

6E]---------------------------------------------------------------------------[

 

          A7                                                                 E7

1E]----------------------------------------------------------------[

2B]---------------5-----8-----5----------------------------------[

3G]----5----7-----------------------7----5----------------------[

4D]-----------------------------------------------7---------------[

5A]---------------------------------------------------------------[

6E]---------------------------------------------------------------[

 

Licks

Lick 1

 

1E]---------------------------5-------------------[

2B]--------------5----7----------7---------------[

3G]----5---7--------------------------7----------[

4D]-----------------------------------------------[

5A]-----------------------------------------------[

6E]-----------------------------------------------[

 

1E]----------------------------------------------------[

2B]--------------5----7-----------5-------------------[

3G]----5---7---------------7------------------7---7--[

4D]----------------------------------------------------[

5A]----------------------------------------------------[

6E]----------------------------------------------------[

Lick 2
Lick 3
 

1E]----8----5------------------------------------[

2B]---------------8----5-------------------------[

3G]--------------------------7----5--------------[

4D]-----------------------------------------------[

5A]-----------------------------------------------[

6E]-----------------------------------------------[

Lick 4
Lick 5
Lick 6

Percorrendo a escala em outros padrões

1E]--------------------------------------------------------------------------------------5--8-----[

2B]---------------------------------------------------------------5--8-----------5--8------------[

3G]----------------------------------------5--7-----------5--8----------5--7--------------------[

4D]------------------5--7----------5--7----------5--7-------------------------------------------[

5A]----------5--7----------5--7------------------------------------------------------------------[

6E]---5--8----------------------------------------------------------------------------------------[

 

 

1E]--8--5--------------------------------------------------------------------------------------[

2B]---------8--5---------8--5-----------------------------------------------------------------[

3G]----------------7--5---------7--5---------7--5--------------------------------------------[

4D]-------------------------------------7--5---------7--5---------7--5-----------------------[

5A]----------------------------------------------------------7--5---------7--5----------------[

6E]-------------------------------------------------------------------------------8--5---------[

1E]--------------------------------------------------------------------------------------------5-------5--8----[

2B]-----------------------------------------------------------------------5-----5--8--5--8-------8------------[

3G]---------------------------------------------------5-----5--7--5--7-----7----------------------------------[

4D]-------------------------------5-----5--7--5--7-----7------------------------------------------------------[

5A]----------5------5--7--5--7-----7--------------------------------------------------------------------------[

6E]---5--8------8----------------------------------------------------------------------------------------------[

 

 

1E]---8--5-----5------------------------------------------------------------------------------------------------[

2B]---------8------8--5--8--5------5---------------------------------------------------------------------------[

3G]------------------------------7------7--5--7--5-------5-----------------------------------------------------[

4D]----------------------------------------------------7------7--5--7--5------5--------------------------------[

5A]--------------------------------------------------------------------------7-----7--5--7--5------5-----------[

6E]-----------------------------------------------------------------------------------------------8------8--5----[

Página anterior

Cap 10
Pág 3

Próxima página