Escala menor natural

Cap. 9  Escala menor
Pág 1

Escala de A menor

Toda escala maior possui um escala relativa menor, essa escala relativa menor é formada pelas mesmas notas da escala maior, que começa a partir do 6º grau da escala e dá origem á uma nova escala. Veja como se forma a escala menor no vídeo abaixo:

IMPORTANTE

A fôrma da escala menor são as notas naturais começando de Lá. A escala menor possui meio tom entre o 2º e 3º graus e entre o 5º e 6º graus e 1 Tom nos demais graus.

Veja abaixo como seriam as escalas de Lá menor, Mi menor e Si menor. A escala de Lá menor só possui notas naturais, a de mi menor possui o fá# como única alteração, já a de Si menor possui duas alterações: Fá# e Ré#

Tons relativos

Todo tom Maior possui um tom relativo menor. O Tom relativo possui as mesmas notas do seu relativo Maior, só que colocando o 6º grau como tônica. Por exemplo o relativo de Dó Maior seria o Lá menor, possui é o 6º grau da escala de dó Maior. 

Campo harmônico dó maior:

C       Dm       Em       F        G       Am       B°

1         2           3        4         5         6         7

Veja os tons e seus  relativos (classificação de acordo com o ciclo das quintas):

Dó Maior  - Lá menor                              Fá Maior  -  Ré menor                   

Sol Maior - Mi menor                               Sib Maior - Sol menor

Ré Maior - Si menor                                Mib Maior -  Dó menor

Lá Maior - Fá# menor                             Láb Maior - Fá menor

Mi Maior - Dó# menor                             Réb Maior - Sib menor

Si Maior - Sol# menor                             Solb Maior - Mib menor

Escala de A menor - Tocando na 1ª região

Vamos tocar a escala de Lá menor natural (duas oitavas) na primeira região do violão, ela é composta das notas naturais com a tônica em Lá. Não se esqueça de usar a digitação colocando o dedo 1 na casa 1, dedo 2 na casa 2 e 3 na 3.

 

 

1E]-----------------------------------------------------0---1---3---5----[

2B]---------------------------------------0---1---3----------------------[

3G]------------------------------0---2------------------------------------[

4D]-----------------0---2---3--------------------------------------------[

5A]----0---2---3---------------------------------------------------------[

6E]-----------------------------------------------------------------------[

 

 

 

Escala de Mi menor - Tocando na 1ª região

Vamos tocar a escala de Mi menor natural (duas oitavas) na primeira região do violão, ela é uma escala que possui uma alteração, o Fá# no lugar do Fá natural. Observe que você precisará usar o dedo 4 na casa 4 para tocar o fá#. 

 

 

1E]-----------------------------------------------------------------0------[

2B]----------------------------------------------------0---1---3----------[

3G]-------------------------------------------0---2-----------------------[

4D]-----------------------------0---2---4---------------------------------[

5A]----------------0---2---3----------------------------------------------[

6E]---0---2---3-----------------------------------------------------------[

 

 

 

Escala menor em todos os tons

Veja abaixo a escala menor de cada tonalidade.

Na coluna da esquerda a ordem pelo ciclo das quintas, e na coluna da direita, pelo ciclo das quartas

      Lá menor =   A  B  C  D  E  F  G

1b Ré menor =   D  E  F  G  A  Bb  C

2b Sol menor =   G  A  Bb  C  D  Eb  F

 

3b Dó menor =  C  D  Eb  F  G  Ab  Bb

 

4b Fá menor =  F   G   Ab  Bb  C  Db  Eb

 

5b Sib  menor =    Bb  C   Db  Eb  F  Gb  Ab

1#  Mi menor =  E   F#  G#  A  B C  D 

2# Si menor =  B  C#  D  E  F#  G  A  

 

3# Fá# menor =  F#  G#   A  B  C#  D  E

 

4# Dó# menor =  C#  D#   E   F#  G#  A  B

 

5# Sol#  menor =  G#   A#  B  C#  D# E  F#  

Página anterior

Cap 9
Pág 1

Próxima página