Terezinha de Jesus

VÍDEO TABLATURA
Tocando 

Parte A (repete 2x)

                  Am

1E]------0-----------------0----------[

2B]--1-----------------1--------------[

3G]---------2---2--------------2------[

4D]------------------------------------[

5A]---------0------------------0------[

6E]------------------------------------[

                      A7                      Dm

1E]---0---0---1---0------------------[

2B]--------------------3---2---3-----[

3G]-----------------------------------[

4D]-----------------------------0-----[

5A]------------0----------------------[

6E]-----------------------------------[

                                                      Am

1E]---0---0---3---1---1--0-------1--0---[

2B]----------------------------3-----------[

3G]-----------------------------------------[

4D]--------------------------------0-------[

5A]------------0---------------------------[

6E]----------------------------------------[

                      E                                  Am

1E]-----------0----------------------------[

2B]---3---1------3----3---1---0----------[

3G]-----------------------------------2----[

4D]----------------------------------------[

5A]-----------------------------------0----[

6E]-----------0----------------------------[

HARMONIA
Colocando o A7

Você pode fazer a harmonia colocando o A7 (Lá Maior com sétima menor) no terceiro compasso. O A7 é um acorde dominante, dominante do Ré menor. Ele cria a tensão que se resolve no Dm.

MÃO ESQUERDA
MÃO DIREITA