CAP 1 PÁG1

Dó Maior e Peixe vivo

Cap. 1 As notas musicais
Pág 1 Dó Maior e Peixe Vivo

Vamos fazer uma pequena revisão teórica antes de avançar para a lição

Teoria

Nome das Notas e Escala de Dó Maior

Tudo mundo sabe que as notas musicas são dó, ré, mi, fa, sol, lá e si. Essa é o nome das notas para os falantes de línguas derivadas do Latim.

 

Também existe a nomenclatura das notas em línguas Anglo-saxonicas (inglês, alemão, etc) onde as notas são representadas por letras maiúsculas conforme pode ser visto na tabela abaixo.

A nomenclatura germânica é utilizada em nossa língua como padrão de escrita para as cifras. As cifras também representam os acordes, que são ao menos 3 notas diferentes que soam ao mesmo tempo, conteúdo que vamos tratar logo mais neste curso. É importante reparar que se escreve C mas se fala dó, se escreve D mas se fala ré, etc.

 

Para já ir botando a mão na massa vamos ver as notas em questão no instrumento, estas notas correspondem a escala de dó maior.

 

 

Dó, ré, mi, fá, sol, lá, si no braço do violão 

Toque as notas naturais na 1ª região do braço do violão. A 1ª região é aquela que vai até a 4ª casa. É a região mais trabalhada do instrumento e a base para saber usar o restante do braço

1E]-----------------------------------------------[ 

2B]----------------------------------------1-----[

3G]---------------------------0----2-------------[

4D]----------0----2----3-------------------------[

5A]----3------------------------------------------[

6E]-----------------------------------------------[

O seu objetivo é:
  1. Saber tocar essa escala sem olhar pra tablatura
  2. Saber solfejar (cantar) a escala

O seu objetivo é tocar essa escala e memorizá-la. Uma forma de fazer isso é fazer a escala falando o nome das notas, ou você pode também solfejar. Solfejar é cantar o mesmo som da nota falando o nome dela.

Quando você colocar a melodia da escala na mente, e se você for fazer no violão e errar, vai saber na hora que errou e vai consertar o erro, esta é a melhor forma de se memorizar. pois você memoriza o som da nota na mente. A prática é consequência disso, é de dentro pra fora e não de fora pra dentro.

Música

Peixe Vivo

Agora utilizando a mesma escala (dó a dó), você irá tocar a melodia da música peixe vivo

Frase 1 (2x)

 

 

1E]-----------------------------------------------------------------------------------[ 

2B]-----------------------------------------------------------------------------------[

3G]-------0----0---------2----2----0----------0----0-------------------------------[

4D]---2-------------3---------------------2---------------3----0----3----3----2----[

5A]-----------------------------------------------------------------------------------[

6E]-----------------------------------------------------------------------------------[

 

Frase 2 (2x)

 

 

1E]---------------------------------------------------------------------------------[ 

2B]-------------0--1--0-------------------------0--1--0--------------------------[

3G]---------2--------------2---0------------2---------------2---0----------------[

4D]---------------------------------------------------------------------------------[

5A]---3-3----------------------------3-3------------------------------------------[

6E]---------------------------------------------------------------------------------[

 

Repete Frase 1 (2x)

 

 

1E]-----------------------------------------------------------------------------------[ 

2B]-----------------------------------------------------------------------------------[

3G]-------0----0---------2----2----0----------0----0-------------------------------[

4D]---2-------------3---------------------2---------------3----0----3----3----2----[

5A]-----------------------------------------------------------------------------------[

6E]-----------------------------------------------------------------------------------[

Você aprendeu que:
  1. As notas naturais são um conjunto de notas das quais se podem criar melodias
  2. Aprendeu a fazer a escala de Dó no braço 
  3. É possível fazer uma melodia de uma música com as notas dó, ré, mi, fá, sol, lá, si

Cifra Peixe vivo

Tom: C

 

           C                     F

Como pode o peixe vivo

          G                    C

Viver fora da água fria

            C                    F

Como pode o peixe vivo

          G                    C

Viver fora da água fria

 

            F              C

Como poderei viver

            F               C

Como poderei viver

 

 

             F                C

Sem a tua, sem a tua

             G               C

Sem a tua companhia

             F                C

Sem a tua, sem a tua

            G                C

Sem a tua companhia

Página anterior

Cap1
Pág 1

Próxima página