Se essa rua fosse minha

Cap. 11  Menor harmônica
pág 2

Agora, vamos tocar uma música que utiliza a escala menor hamônica junto com a menor natural em sua melodia. Muitas vezes vamos encontrar músicas com a mistura dessas escalas, é normal.

Tablatura em PDF

        Am                                                E7                                                                        Am

 

1E]--0--0--5--5---0------------3--1--0--------------0--0--7--7----4--0--1--0--8--7--5----------[

2B]--------------------1--------------------0---------------------------------------------------------[

3G]-----------------------2--2------------------------------------------------------------------------[

4D]----------------------------------------------------------------------------------------------------[

5A]----------------------------------------------------------------------------------------------------[

6E]----------------------------------------------------------------------------------------------------[

 

 

                                                             Dm                              Am                 E7                         Am

 

1E]--0--0--5--5----8--7--5--3--1--0--3-----1----------0-----0-----7---4---0---------------------[

2B]-----------------------------------------------------------3----------------------3---1---0--------[

3G]------------------------------------------------------------------------------------------------2---[

4D]----------------------------------------------------------------------------------------------------[

5A]----------------------------------------------------------------------------------------------------[

6E]----------------------------------------------------------------------------------------------------[

 

Cifra

              Am                                    E
Se essa rua, se essa rua fosse minha;
                                                    Am
eu mandava,eu mandava ladrilhar;
                                                               Dm
Com pedrinhas,com pedrinhas de brilhantes;
             Am                 E                   Am
Para o meu, para o meu amor passar.

           Am                                     E
Nessa rua, nessa rua tem um bosque
                                                           Am
Que se chama, que se chama solidão
                                                           Dm
Dentro dele, dentro dele mora um anjo
              Am                  E                   Am
Que roubou, que roubou meu coração

 

               Am                                         E
Se eu roubei, se eu roubei teu coração
                                                               Am
Tu roubaste, tu roubaste o meu também
                                                           Dm
Se eu roubei se eu roubei teu coração
            Am                E                  Am
Foi porque, só porque te quero bem

Análise 

Veja agora o professor tocando a melodia da música e analisando o uso da escala nela.

Lago dos cisnes

Esta música também mistura as escalas de Lá menor natural e harmônica. Um grande clássico da música, composição do russo Tchaikovsky

         Am        Dm               Am                                                     Dm                    Am             E

            

1E]---0---------------------0----------0-------------0-----------------------------------------------------[

2B]---------------0--1--3----------1------------1-----------------1----------1---------------3--1---0---[

3G]-----------2------------------------------------------------2-------2-----------2-----------------------[

4D]-------------------------------------------------------------------------3-------------------------------[

5A]----------------------------------------------------------------------------------------------------------[

6E]----------------------------------------------------------------------------------------------------------[

 

        Am       Dm                 Am                                                     Dm                      Am

 

1E]---0---------------------0----------0-------------0-----------------------------------------------------[

2B]---------------0--1--3----------1------------1-----------------1----------1----------------------------[

3G]-----------2------------------------------------------------2-------2-----------2-----------------------[

4D]-------------------------------------------------------------------------3-------------------------------[

5A]----------------------------------------------------------------------------------------------------------[

6E]----------------------------------------------------------------------------------------------------------[

                                                          

                  G7                             C                                Dm                               E

 

1E]------------------------0--1--3----1----0----1--3--5----3----1----3--5--7----------------------[

2B]--------0----1----3--------------------------------------------------------------------------------[

3G]---2------------------------------------------------------------------------------------------------[

4D]----------------------------------------------------------------------------------------------------[

5A]----------------------------------------------------------------------------------------------------[

6E]----------------------------------------------------------------------------------------------------[

 

         Am       Dm               Am                                                       E                     Am

 

1E]---0---------------------0----------0-------------0-----------------------------------------------------[

2B]---------------0--1--3----------1------------1-----------------1----------1----------------------------[

3G]-----------2------------------------------------------------2-------1-----------2-----------------------[

4D]-------------------------------------------------------------------------3-------------------------------[

5A]----------------------------------------------------------------------------------------------------------[

6E]----------------------------------------------------------------------------------------------------------[

 

Página anterior

Cap 11
Pág 2

Próxima página