Pentatônica Maior

Cap. 10  Escala Pentatônica
Pág 1

Explicando pelas notas

Veja abaixo a esplicação de como se forma a escala pentatônica

Penta Maior - Shape 1 (Dó Maior)

1E]--------------------------------------------3----5---[

2B]---------------------------------3----5--------------[

3G]-----------------------2---5-------------------------[

4D]--------------2---5----------------------------------[

5A]----3---5--------------------------------------------[

6E]------------------------------------------------------[

Penta Maior - Começando na 6ª corda (Dó Maior)

1E]------------------------------------------------------8---10---[

2B]-------------------------------------------8---10--------------[

3G]---------------------------------7---9-------------------------[

4D]-----------------------7---10----------------------------------[

5A]------------7---10---------------------------------------------[

6E]--8---10-------------------------------------------------------[

Página anterior

Cap 5
Pág 7

Próxima página