Pentatônica menor

Cap. 10  Escala Pentatônica
Pág 2

Explicando a pentatônica menor

Tocando a pentatônica menor

1E]-------------------------------------------------5---8----[

2B]---------------------------------------5---8--------------[

3G]------------------------------5---7-----------------------[

4D]--------------------5----7--------------------------------[

5A]-----------5--7-------------------------------------------[

6E]--5---8---------------------------------------------------[

Pentatônica menor

I shot the sheriff

Veja aqui este tema da música I shot the sherif, de Bob Marley, a melodia é feita na escala pentatônica de Sol menor. É só fazer o desenho da penta menor começando do sol, na 6ª corda, 3ª casa.

I shot the sherif

 

1E]---------3----------------------------------------------------------------[

2B]---------------6------3-----------------3--------------------------------[

3G]-----------------------------5------3--------5-------3-------------------[

4D]--------------------------------------------------------------5-----------[

5A]---------------------------------------------------------------------------[

6E]---------------------------------------------------------------------------[

 

 

Escala de G pentatônica menor

 

1E]---------------------------------------------------------------------------3-----6------[

2B]---------------------------------------------------------------3-----6------------------[

3G]-------------------------------------------------3------5-------------------------------[

4D]---------------------------------3-------5----------------------------------------------[

5A]-------------------3------5-------------------------------------------------------------[

6E]------3------6--------------------------------------------------------------------------[

Página anterior

Cap 10
Pág 2

Próxima página