Capítulo 1

Melodia e Baixo com corda solta

Neste capítulo vamos fazer melodias e colocar a marcação do baixo no lugar onde entrariam os acordes, os baixos de cada acorde. Vamos utilizar músicas com três acordes, sempre Lá Maior A, Ré Maior D e Mi Maior E. Estas notas possuem as cordas soltas como baixo. Veja abaixo na música Peixe vivo.

Peixe Vivo

Andamento: 60 bpm
Andamento: 90 bpm

Parte A (repete 2x)

1E]-------0---0------------2----2---0---------0---0--------------------------[

2B]---2-----------3---3-------------------2------------3---0---3---3---2----[

3G]-----------------------------------------------------------------------------[

4D]------------------------------0----------------------------------------------[

5A]-----------0-------------------------------------------------------0--------[

6E]-------------------------------------------------0---------------------------[

Parte B

1E]------------2-----4--5--4----2---0---------------2-----4--5--4----2---0--[

2B]------------------------------------------------------------------------------[

3G]----2--2-----------------------------------2--2-----------------------------[

4D]-----------0---------------------------------------0-------------------------[

5A]-------------------------------0--------------------------------------0------[

6E]------------------------------------------------------------------------------[

Parte A

1E]-------0---0------------2----2---0---------0---0--------------------------[

2B]---2-----------3---3-------------------2------------3---0---3---3---2----[

3G]-----------------------------------------------------------------------------[

4D]------------------------------0----------------------------------------------[

5A]-----------0-------------------------------------------------------0--------[

6E]-------------------------------------------------0---------------------------[

1E]-------0---0------------2----2---0---------0---0--------------------------[

2B]---2-----------3---3-------------------2------------3---0---3-------------[

3G]-------------------------------------------------------------------2---------[

4D]------------------------------0----------------------------------------------[

5A]-----------0-------------------------------------------------------0--------[

6E]-------------------------------------------------0---------------------------[

Mão esquerda

Mão direita

Enquanto os dedos indicador e médio se alternam para fazer a melodia, o dedo polegar toca o baixo, nas três cordas graves

Explicando

Tom: C

 

           A                     D

Como pode o peixe vivo

          E                    A

Viver fora da água fria

            A                    D

Como pode o peixe vivo

          E                    A

Viver fora da água fria

 

            D              A

Como poderei viver

            D               A

Como poderei viver

 

 

             D                A

Sem a tua, sem a tua

             E               A

Sem a tua companhia

             D                A

Sem a tua, sem a tua

            E                A

Sem a tua companhia