CAP 2  PÁG 5

Bolero de Ravel e Links

Cap. 2 Escala de Dó maior
Pág 5 Bolero de Ravel e Links

Música

Veja esta música que também é tocada na escala de Dó Maior, na primeira região. 

 

 

1E]--------------------------------------------------------------------------------------[

2B]--1-------0--1--3--1--0------1--1-----1---------0--1-----------------------------[

3G]----------------------------2---------2-------------------2--0----------0-----------[

4D]------------------------------------------------------------------2--3---------------[

5A]--------------------------------------------------------------------------------------[

6E]--------------------------------------------------------------------------------------[

 

 

1E]-------------------------------------------------------------------------------------------------------------[

2B]--------------------------------------------0---------------------------------------------------------------[

3G]--------------------0--2--0-----------2-------2---0--------------------------------------------------0---[

4D]---3--2--0--2--3--------------------------------------3--2--0--2---0----------------0--2---3--0-------[

5A]---------------------------------------------------------------------------3----3---3----------------------[

6E]-------------------------------------------------------------------------------------------------------------[

 

1E]-------------------------------------------------------------------------------------[

2B]-----3-------1--0------0--1---3--1--0-------1--0------1---0---------------------[

3G]--------------------2----------------------------------2---------2------------------[

4D]----------------------------------------------------------------------3--------------[

5A]--------------------------------------------------------------------------------------[

6E]--------------------------------------------------------------------------------------[

 

 

1E]-----------------------------------------------------------------------------------------[

2B]-----------------1------0---------------------0-----------------------------------------[

3G]--------------2-----2------0--------------2-----0--2-----------------------------------[

4D]-----3-3-3--------------------3--3-3-3----------------3--0--0-----0-----0---0-0-----[

5A]-------------------------------------------------------------------3---------------------[

6E]------------------------------------------------------------------------------------------[

 

 

1E]------------------------------------------------------------------------------------------------[

2B]------------------------------------------------------------------------------------------------[

3G]------------2----0---------------------------------------------------0-------------------------[

4D]----0---3-----3----2--0---0------0--------------0------0---2-3-------------3--2--0--------[

5E]--------------------------------3----------------------3---------------------------------3-----[

6E]------------------------------------------------------------------------------------------------[

 

 

1E]----------------------------------------------------------------------------------------------------[

2B]----------------------------------------------------------------------------------------------------[

3G]---0--0--0--0----0--0--0--0------0----0------0--0--0--0------0--0--0--0--0--0--0--0--0----[

4D]----------------------------------------------------------------------------------------------------[

5E]----------------------------------------------------------------------------------------------------[

6E]----------------------------------------------------------------------------------------------------[

Links

Veja abaixo links de músicas  (solos) utilizando as notas naturais na 1ª região do violão que se encontram no site Violão De Boa

Página anterior

Cap 2
Pág 5

Próxima página