CAP 3  PÁG 1

Graus e Frere Jaques

Graus
Cap. 3  Graus da escala
Pág 1 Graus e Frere Jaques

Teoria

Em uma escala, de acordo com a disposição das notas, iremos identificá-las a partir de seu posicionamento em relação à tônica, chamaremos cada posição de grau, indo do primeiro grau até o sétimo grau.  Veja abaixo, na escala de dó maior, como fica:

 
 Notas:   Dó             Ré               Mi          Fá           Sol          Lá           Si  
 Graus:   1º grau         2º grau           3º           4º            5º           6º           7º
 

Veja a tablatura da escala tocada no vídeo:

 

          1        2         3       4       5        6        7        8

         Dó      Ré      Mi      Fá    Sol     Lá      Si      Dó

 

1E]-----------------0-----1-----3-----5-----7-----8---[

2B]---1------3------------------------------------------[

3G]------------------------------------------------------[

4D]------------------------------------------------------[

5A]------------------------------------------------------[

6E]------------------------------------------------------[

O tom da escala sempre vai ser a primeira nota, o primeiro grau, também chamado de tônica ou fundamental.

Veja abaixo como ficaria a disposição dos graus na escala de Lá menor

 
 Notas:    Lá             Si             Dó           Ré           Mi          Fá         Sol  
 Graus:   1º grau          2º grau       3º            4º            5º           6º           7º
 

Música

Frere Jaques

Veja as notas e graus da melodia

 

 

 1     2      3      1

Dó   Ré    Mi    Dó

 

 1     2     3    1

Dó   Ré  Mi  Dó

 

 0    1      3 

Mi  Fá   Sol

 0    1     3

Mi  Fá  Sol

 

 3     5     3     1    0    1

Sol  Lá  Sol  Fá  Mi  Dó

  3    5     3     1    0    1

Sol  Lá  Sol  Fá  Mi  Dó

 

 1      3    1

Dó  Sol  Dó

 1      3    1

Dó  Sol  Dó

 

Agora veja aqui a tablatura

 

 

 

               Dó        Ré           Mi          Dó

 

1E]-------------------------0---------------------[

2B]-------1-------3------------------1-----------[

3G]-----------------------------------------------[

4D]-----------------------------------------------[

5A]-----------------------------------------------[

6E]-----------------------------------------------[

 

 

 

               Mi        Fá          Sol

 

1E]-------0-------1--------3----------------[

2B]------------------------------------------[

3G]------------------------------------------[

4D]------------------------------------------[

5A]------------------------------------------[

6E]------------------------------------------[

 

 

 

       Sol        Lá        Sol        Fá         Mi        Dó

 

1E]--3-------5-------3-------1-------0-------------[

2B]--------------------------------------------1----[

3G]--------------------------------------------------[

4D]--------------------------------------------------[

5A]--------------------------------------------------[

6E]--------------------------------------------------[

 

 

 

               Dó        Sol         Dó

 

1E]----------------3-------------------------[

2B]-------1-----------------1---------------[

3G]------------------------------------------[

4D]------------------------------------------[

5A]------------------------------------------[

6E]------------------------------------------[

A melodia e os graus

Veja neste vídeo eu demonstrando na prática como  funciona o raciocínio em graus, usando o exemplo da música Frere Jaques

Página anterior

Cap 3
Pág 1

Próxima página