Exercícios de Percepção

CAP 2  PÁG 2

Luar do Sertão

Cap. 2 Escala de Dó maior
Pág 2  Percepção Dó a Sol
1 - Agudo ou grave 
Abaixo você tem o áudio de duas notas tocadas no violão. Você deverá dizer se a segunda nota tocada é mais aguda, mais grave ou a mesma nota que a primeira tocada

a)

b)

c)

2 - Utilizando o dó, ré, mi

            Dó      Ré      Mi

 

1E]-------------------0---------------[

2B]-----1------3---------------------[

3G]-----------------------------------[

4D]-----------------------------------[

5A]-----------------------------------[

6E]-----------------------------------[

 

 

Dó     Ré     Mi

21     23     10

Exercício: Descubra qual a sequencia de notas gravadas nos audios 1 a 5, correspondendo cada número com uma das letras A, B, C, D, E.  

1

3

5

2

4

A) Dó  Dó  Ré 
B) Dó  Mi   Ré 
C) Dó  Ré  Dó
D) Dó  Dó  Mi 
E) Dó  Ré  Mi
3 - Utilizando o Dó, Mi, Sol

            Dó       Mi        Sol

 

1E]-------------0-------3------------[

2B]-----1-----------------------------[

3G]-----------------------------------[

4D]-----------------------------------[

5A]-----------------------------------[

6E]-----------------------------------[

 

 

Dó     Mi     Sol

21     10     13

1

2

3

4

A) Dó  Mi  Dó 
B) Dó  Sol Dó
C) Dó  Mi  Sol 
D) Dó  Sol  Mi
4 - Utilizando Dó, Ré, Mi, Fá e Sol

            Dó       Mi        Sol

 

1E]---------------------0------1-----3------[

2B]-----1-------3---------------------------[

3G]------------------------------------------[

4D]------------------------------------------[

5A]------------------------------------------[

6E]------------------------------------------[

 

 

Dó     Mi     Sol

21     10     13

Exercício: Descubra qual a sequencia de notas gravadas nos audios abaixo, utilizando as notas dó ré mi fá sol. 

1

2

3

4

5 - Começando do Mi

1

2

3

4

Associando os sons com o início da letra de canções

Dó - Ré

  • Bra - sil, meu Brasil brasileiro... (Aquarela do Brasil)

  • Berimbau, toque da capoeira

Dó - Mi

  • Eu sei que vou te amar, por toda a minha vida eu vou te amar.... (Eu sei que vou te amar, Vinícius de Moraes)

Dó -  Fá

  • Ou - vi ram  do ipiranga às margens plácidas... (Hino Nacional Brasileiro)

  • Ca - í a  a tarde feito viaduto, e um bêbado trajando luto... (O bêbado e o equilibrista - joão Bosco)

  • Tris - te za não tem fim, felicidade sim... (A felicidade - Vinícius de Moraes)

Dó - Sol

  • Solo de introdução da música que país é esse, Legião Urbana

Página anterior

Cap 2
Pág 2

Próxima página