Penta Blues

Penta menor blues

Cap. 10  Escala Pentatônica
Pág 4

A pentatônica possui uma variação chamada de penta blues,  é uma escala que define o blues. Nela há as cinco notas da escala menor mais uma nota chamada blue note, que possui um som bastante dissonante.  Veja abaixo o desenho da escala.

Escala penta lá menor. Blue note em negrito

 

 

1E]----------------------------------------------------5--8--[

2B]--------------------------------------------5---8---------[

3G]--------------------------------5---7---8-----------------[

4D]------------------------5---7-----------------------------[

5A]-----------5---6---7--------------------------------------[

6E]---5---8--------------------------------------------------[

 

Penta menor blues

Tocando e analisando

Estudo

        A7

 

1E]-----------------------------------------------------------------------------------[

2B]---------------------------------------------------------------5------------------[

3G]---------5----7/8----5--------------------------5---7/8-----------5------------[

4D]----7---------------------7----------------7---------------------------7---------[

5A]-----------------------------------------------------------------------------------[

6E]-----------------------------------------------------------------------------------[

 

 

      D7                                               A7

1E]------------------------------------------------------------------------------------[

2B]-------------------------------------------------------------5----------------------[

3G]---------5----7/8----5---7----------------------5---7/8--------5----------------[

4D]----7------------------------------------7-----------------------------7-----------[

5A]-------------------------------------------------------------------------------------[

6E]-------------------------------------------------------------------------------------[

 

 

                   E7                                                              D7

 

1E]----------8-----5------------5--------------------------------------------[

2B]----5------------------8-----------8----5--------------------------------[

3G]------------------------------------------------8---7---------------------[

4D]---------------------------------------------------------------------------[

5A]---------------------------------------------------------------------------[

6E]---------------------------------------------------------------------------[

 

          A7                                                            E7

1E]----------------------------------------------------------------[

2B]---------------------5-----------------------------------------[

3G]----5----7----8------------8----7----5-----------------------[

4D]-----------------------------------------------7---------------[

5A]---------------------------------------------------------------[

6E]---------------------------------------------------------------[

 

Explicando Estudo

Pergunta e resposta

No  exemplo 1 temos na 1ª frase (pergunta) a última nota um Sol (8), dando a idéia de tensão, de algo que não foi resolvido:

1E]-------------------------------------5-------------[

2B]--------------------------5----8---------8--------[

3G]----------5---7----8------------------------------[

4D]-----7---------------------------------------------[

5A]---------------------------------------------------[

6E]---------------------------------------------------[

Na 2ª frase (resposta), agora sim terminamos no lá (última nota), dando uma sensação de finalidade, resolução e relaxamento:

1E]----------------------------------------------------[

2B]--------------------------5------------------------[

3G]----------5----7----8---------8----7---5---------[

4D]-----7----------------------------------------7----[

5A]----------------------------------------------------[

6E]----------------------------------------------------[

Exemplo 2

Pergunta (termina na blue note) - Tensão, suspensão.

1E]----------------------------------------------------[

2B]--------------------------5-------------------------[

3G]----------5---7----8----------8----7----8---------[

4D]-----7----------------------------------------------[

5A]-----------------------------------------------------[

6E]-----------------------------------------------------[

Na 2ª frase (resposta), agora sim terminamos no lá (última nota), dando uma sensação de finalidade, resolução e relaxamento:

1E]----------------------------------------------------[

2B]--------------------------5------------------------[

3G]----------5----7----8---------8----7---5---------[

4D]-----7----------------------------------------7----[

5A]----------------------------------------------------[

6E]----------------------------------------------------[

Página anterior

Cap 10
Pág 4

Próxima página