Pra não dizer que não falei das flores

Cap. 9  Escala menor
Pág 2
Pra não dizer que não falei das flores
Geraldo Vandré

A melodia desta musica é feita sobre a escala de Lá menor, utilizando a primeira região do braço do innstrumento

Música

                    Am                    G                                    Am

 

1E]------------0--------------------------------------------------[

2B]-----------------3---1----3---1---0--3---1---0---1---------[

3G]----2---2-----------------------------------------------------[

4D]---------------------------------------------------------------[

5A]---------------------------------------------------------------[

6E]---------------------------------------------------------------[

 

                                             G                                   Am

1E]------------0--------------------------------------------------[

2B]-----------------3---1----3---1---0--3---1---0---1---------[

3G]----2---2-----------------------------------------------------[

4D]---------------------------------------------------------------[

5A]---------------------------------------------------------------[

6E]---------------------------------------------------------------[

 

                                              G                                     Am

1E]---------------------------------------------------------------[

2B]-------------1---0--------0------------0---------------------[

3G]----2---2------------2--------2---0-------2---0---2--------[

4D]---------------------------------------------------------------[

5A]---------------------------------------------------------------[

6E]---------------------------------------------------------------[

 

                                              G                                   Am

1E]--------------------------------------------------------------[

2B]-------------1---0--------0------------0---------------------[

3G]----2---2------------2--------2---0-------2---0---2--------[

4D]---------------------------------------------------------------[

5A]---------------------------------------------------------------[

6E]---------------------------------------------------------------[

 

                                      G                                            Am

 

1E]----0---0---1---0---0----------------------------------------[

2B]-------------------------3--3----3---1--0--------------------[

3G]----------------------------------------------2--0--2---------[

4D]---------------------------------------------------------------[

5A]---------------------------------------------------------------[

6E]---------------------------------------------------------------[

                                           G                                               Am

 

1E]----------------------------------------------------------0-----[

2B]----1---1--1---3---1---1---0-----0---0--1--0------1--------[

3G]---------------------------------------------------2------------[

4D]----------------------------------------------------------------[

5A]----------------------------------------------------------------[

6E]----------------------------------------------------------------[

 

                            G                                          Am

 

1E]--5--0--0--0--3------------0----------------------------------[

2B]-------------------3--3--3------3--3---1--1------------------[

3G]----------------------------------------------------------------[

4D]----------------------------------------------------------------[

5A]----------------------------------------------------------------[

6E]----------------------------------------------------------------[

 

 

                                   G                                         Am

 

1E]--0--0--0--1--0--0--------------------------------------------[

2B]----------------------3---3--3---1--0-------------------------[

3G]------------------------------------------2--0--2--------------[

4D]----------------------------------------------------------------[

5A]----------------------------------------------------------------[

6E]----------------------------------------------------------------[

 

Cifra

           Am                G

Caminhando e cantando

                              Am 
E seguindo a canção

                            G
Somos todos iguais

                                Am
Braços dados ou não

                               G
Nas escolas, nas ruas

                               Am
Campos, construções

                                  G
Caminhando e cantando

                               Am
E seguindo a canção

                             G

Vem, vamos embora

                                    Am
Que esperar não é saber

                               G
Quem sabe faz a hora

                                 Am
Não espera acontecer

                             G

Vem, vamos embora

                                      Am
Que esperar não é saber

                               G
Quem sabe faz a hora

                                  Am
Não espera acontecer

                                G

Pelos campos há fome

                                   Am
Em grandes plantações

                              G
Pelas ruas marchando

                         Am
Indecisos cordões

                              G
Ainda fazem da flor

                               Am
Seu mais forte refrão

                                G
E acreditam nas flores

                            Am
Vencendo o canhão

                             G

Vem, vamos embora

                                    Am
Que esperar não é saber

                               G
Quem sabe faz a hora

                                 Am
Não espera acontecer

                             G

Vem, vamos embora

                                      Am
Que esperar não é saber

                               G
Quem sabe faz a hora

                                  Am
Não espera acontecer

                            G

Há soldados armados

                      Am

Amados ou não

                             G

Quase todos perdidos

                        Am

De armas na mão

                                    G

Nos quartéis lhes ensinam

                       Am

Uma antiga lição

                            G

De morrer pela tria

                         Am

E viver sem razão

 

 

                             G

Vem, vamos embora

                                    Am
Que esperar não é saber

                               G
Quem sabe faz a hora

                                 Am
Não espera acontecer

                             G

Vem, vamos embora

                                      Am
Que esperar não é saber

                               G
Quem sabe faz a hora

                                  Am
Não espera acontecer

                                G

Nas escolas, nas ruas

                               Am

Campos, construções

                               G

Somos todos soldados

                      Am

Armados ou não

                                   G

Caminhando e cantando

                              Am

E seguindo a canção

                            G

Somos todos iguais

                               Am

Braços dados ou não

                            G

Os amores na mente

                       Am

As flores no chão

                           G

A certeza na frente

                       Am

A história na mão

                                 G

Caminhando e cantando

                              Am

E seguindo a canção

                                   G

Aprendendo e ensinando

                     Am

Uma nova lição

                             G

Vem, vamos embora

                                    Am
Que esperar não é saber

                               G
Quem sabe faz a hora

                                 Am
Não espera acontecer

                             G

Vem, vamos embora

                                      Am
Que esperar não é saber

                               G
Quem sabe faz a hora

                                  Am
Não espera acontecer

Página anterior

Cap 9
Pág 2

Próxima página