Harmonia, Solos, Improvisação, Teoria e Percepção no Violão

Principal > Postagem

Ritmo da chuva


Veja aqui a vídeo tablatura cifrada de violão da música Ritmo da chuva. Neste vídeo você verá o solo da música sendo executado com a tablatura exibida na tela, juntamente com a cifra (os acordes) para violão.

Esta música já foi gravada por Ronnie Von, Pato Fu, Victor e Leo, Los Hermanos, Demétrius.

TABLATURA / PARTITURA EM PDF

Tablatura cifrada da melodia - Ritmo da chuva

Parte A

F Bb

1E]--------------------------------------------------------------------------------[

2B]-----3----1----1-----------------------------------------------------------[

3G}------------------------2-----2-----0----0-----------0------------------[

4D]----------------------------------------------------3-----------3-----3----[

5A]-------------------------------------------------------------------------------[

6E]-------------------------------------------------------------------------------[

F C

1E]-------------------------------------------------------------[

2B]------3---1----1-------------------1----1-------------[

3G}------------------------2-----2---------------------------[

4D]-------------------------------------------------------------[

5A]-------------------------------------------------------------[

6E]-------------------------------------------------------------[

F Bb

1E]--------------------------------------------------------------------------------[

2B]------3---1----1-----------------------------------------------------------[

3G}------------------------2-----2-----0----0-----------0------------------[

4D]----------------------------------------------------3-----------3-----3----[

5A]-------------------------------------------------------------------------------[

6E]-------------------------------------------------------------------------------[

F C

1E]-------------------------------------------------------------[

2B]-------------------------------------------------------------[

3G}---------------0-------0----------------------------------[

4D]-----0---3--------3-------0----2----3----------------[

5A]-------------------------------------------------------------[

6E]-------------------------------------------------------------[

Parte B

Bb Am

1E]----------------------------------1----0--------------[

2B]-----3---2---3---1---3-------------------1------[

3G}--------------------------------------------------------[

4D]--------------------------------------------------------[

5A]--------------------------------------------------------[

6E]--------------------------------------------------------[

Gm F

1E]---------------------------------------------------------[

2B]----------------------------------3-----1-------------[

3G}----3---2----3---2---3------------------2-------[

4D]--------------------------------------------------------[

5A]--------------------------------------------------------[

6E]--------------------------------------------------------[

Dm Bb C F

1E]---------------------------------------------------------------------------[

2B]---------------------------------------------------------------------------[

3G}-----------------------------------2---0--------------------------------[

4D]----3----2---3----2----3-----------------3----0---------0-------[

5A]-------------------------------------------------------------3-------3--[

6E]---------------------------------------------------------------------------[

VOCÊ QUER SE DESENVOLVER NO VIOLÃO?

FAÇA NOSSO CURSO HARMONIA E SOLO

MAS SE QUISER APRENDER A TOCAR, FAÇA O CURSO VIOLÃO INICIANTE

Cifra - Ritmo da chuva

F Bb

Olho para a chuva que não quer cessar

F C nela vejo o meu amor

F Bb esta chuva ingrata que não vai parar

F C pra' aliviar a minha dor

F Bb eu sei que o meu amor pra' muito longe foi

F C com a chuva que caiu

F Bb oh gente por favor pra' ela vá contar

F C que o meu coração se partiu

Bb Am chuva traga o meu benzinho

Gm F pois preciso de carinho

Dm Bb C diga a ela pra' não me deixar

F triste assim

F Bb o ritmo dos pingos ao cair no chão

F C só me deixa relembrar

F Bb tomara que eu não fique a esperar em vão

F C por ela que me faz chorar

Bb Am chuva traga o meu benzinho

Gm F pois preciso de carinho

Dm Bb C diga a ela pra' não me deixar

F triste assim

ACORDES

.

#Solo

PRODUÇÃO DE: