Harmonia, Solos, Improvisação, Teoria e Percepção no Violão

Principal > Postagem

Escala Maior - Shape 1

Veja a escala Maior, de dó Maior, sendo tocada no shape 1, depois você verá a aplicação prática deste shape fazendo uma melodia, a melodia de Trenzinho Caipira, de Villa Lobos. Com este exercício você observará na prática o uso da escala no braço, tocar uma melodia fará sua sintonia e memória sobre a escala melhorar também.


Primeiro você deve treinar a escala no braço, subindo e descendo para decorar as posições

Escala de Dó Maior - Shape 1

1E]--------------------------------------------------------------------3----5----7----8-----[

2B]---------------------------------------------------3----5----6---------------------------[

3G]----------------------------------2-----4----5-------------------------------------------[

4D]----------------2----3-----5-------------------------------------------------------------[

5A]-----3----5-------------------------------------------------------------------------------[

6E]-------------------------------------------------------------------------------------------[

Com as notas

Com os dedos

Trenzinho Caipira

C F/C

1E]-----------------------------------------3-----3--3-----------------[

2B]----5----5--5---3--------5--------5------------------6--5---6----[

3G]----------------------5----------------------------------------------[

4D]---------------------------------------------------------------------[

5A]---------------------------------------------------------------------[

6E]---------------------------------------------------------------------[

G C

1E]-----------------------------------------5-----5--5-----3-------3---[

2B]----6----6--6---5----3----6--------6-----------------------6-------[

3G]----------------------------------------------------------------------[

4D]----------------------------------------------------------------------[

5A]----------------------------------------------------------------------[

6E]----------------------------------------------------------------------[

Am Em F7M Em Am

1E]----8----8---8-----7---5---7----------------5-----5----5----3---------3---[

2B]-----------------------------------5---------------------------------6--------[

3G]-------------------------------------------------------------------------------[

4D]-------------------------------------------------------------------------------[

5A]-------------------------------------------------------------------------------[

6E]-------------------------------------------------------------------------------[

Dm C G

1E]----------------------------------------------------------------------------[

2B]---6----6---6----5----3----5-----------5------5----5----3---------3----[

3G]-----------------------------------------------------------------5---------[

4D]----------------------------------------------------------------------------[

5A]----------------------------------------------------------------------------[

6E]----------------------------------------------------------------------------[

C F/C

1E]---------------------------------------------------------------------------------------[

2B]-----3----3---------------------------------3-------3----3---------------------------[

3G]-----------------5----4----2----------2-----------------------5----4----2--------2--[

4D]---------------------------------------------------------------------------------------[

5A]---------------------------------------------------------------------------------------[

6E]---------------------------------------------------------------------------------------[

C F/C C

1E]----------------------------------------------------------------------------------------[

2B]--3---------3----3---------------------------------------------------------------------[

3G]------------------------5----4----2----------4----2-----------4---2----------4---2--[

4D]----------------------------------------------------------------------------------------[

5A]----------------------------------------------------------------------------------------[

6E]----------------------------------------------------------------------------------------[

Veja os acordes usados e a disposição deles em compassos de 4 tempos.

#Lições #Prática

PRODUÇÃO DE: