Trenzinho Caipira

 

 

 

Trenzinho Caipira - Villa Lobos - Tablatura e Cifra

 

Tablatura em PDF

 

 

 

 

C                                                                                      F/C

 

1E]-----------------------------------------3-----3--3-----------------[

2B]----5----5--5---3--------5--------5------------------6--5---6----[

3G]----------------------5----------------------------------------------[

4D]---------------------------------------------------------------------[

5A]---------------------------------------------------------------------[

6E]---------------------------------------------------------------------[

 

                                                                    G                                   C

1E]-----------------------------------------5-----5--5-----3-------3---[

2B]----6----6--6---5----3----6--------6-----------------------6-------[

3G]----------------------------------------------------------------------[

4D]----------------------------------------------------------------------[

5A]----------------------------------------------------------------------[

6E]----------------------------------------------------------------------[

 

           Am                               Em                     F7M                                    Em  Am

 

1E]----8----8---8-----7---5---7----------------5-----5----5----3---------3---[

2B]-----------------------------------5---------------------------------6--------[

3G]-------------------------------------------------------------------------------[

4D]-------------------------------------------------------------------------------[

5A]-------------------------------------------------------------------------------[

6E]-------------------------------------------------------------------------------[

 

         Dm                                   C                                                           G

 

1E]----------------------------------------------------------------------------[

2B]---6----6---6----5----3----5-----------5------5----5----3---------3----[

3G]-----------------------------------------------------------------5---------[

4D]----------------------------------------------------------------------------[

5A]----------------------------------------------------------------------------[

6E]----------------------------------------------------------------------------[

 

                                                C                                                                   F/C

 

1E]---------------------------------------------------------------------------------------[

2B]-----3----3---------------------------------3-------3----3---------------------------[

3G]-----------------5----4----2----------2-----------------------5----4----2--------2--[

4D]---------------------------------------------------------------------------------------[

5A]---------------------------------------------------------------------------------------[

6E]---------------------------------------------------------------------------------------[

 

         C                                                F/C                 C

1E]----------------------------------------------------------------------------------------[

2B]--3---------3----3---------------------------------------------------------------------[

3G]------------------------5----4----2----------4----2-----------4---2----------4---2--[

4D]----------------------------------------------------------------------------------------[

5A]----------------------------------------------------------------------------------------[

6E]----------------------------------------------------------------------------------------[

 

 

 

Trenzinho Caipira - Villa Lobos - Cifra

 

Veja os acordes usados e  a disposição deles em compassos de 4 tempos.

 

 

 

 

 

Tags: harmonia , solo , violao , guitarra, improviso

Share on Facebook
Share on Twitter
Please reload

Harmonia, Solos, Improvisação, Teoria e Percepção no Violão

PRODUÇÃO DE:

Principal > Postagem